ISO-10303-21;
HEADER;
FILE_DESCRIPTION (( 'STEP AP203' ),
    '1' );
FILE_NAME ('Q-AZHWP-20-980-M.STEP',
    '2020-12-22T09:09:15',
    ( '' ),
    ( '' ),
    'SwSTEP 2.0',
    'SolidWorks 2020',
    '' );
FILE_SCHEMA (( 'CONFIG_CONTROL_DESIGN' ));
ENDSEC;

DATA;
#1 = AXIS2_PLACEMENT_3D ( 'NONE', #78, #180, #156 ) ;
#2 = APPROVAL_STATUS ( 'not_yet_approved' ) ;
#3 = PERSON_AND_ORGANIZATION ( #237, #154 ) ;
#4 =( NAMED_UNIT ( * ) PLANE_ANGLE_UNIT ( ) SI_UNIT ( $, .RADIAN. ) );
#5 = EDGE_LOOP ( 'NONE', ( #188, #8 ) ) ;
#6 = SECURITY_CLASSIFICATION ( '', '', #34 ) ;
#7 = DIRECTION ( 'NONE',  ( -1.000000000000000000, -0.000000000000000000, -0.000000000000000000 ) ) ;
#8 = ORIENTED_EDGE ( 'NONE', *, *, #333, .T. ) ;
#9 = EDGE_CURVE ( 'NONE', #211, #220, #274, .T. ) ;
#10 = DIRECTION ( 'NONE',  ( 0.000000000000000000, 0.000000000000000000, 1.000000000000000000 ) ) ;
#11 = ORIENTED_EDGE ( 'NONE', *, *, #305, .T. ) ;
#12 = APPLICATION_CONTEXT ( 'configuration controlled 3d designs of mechanical parts and assemblies' ) ;
#13 = DIRECTION ( 'NONE',  ( 0.000000000000000000, 0.000000000000000000, 1.000000000000000000 ) ) ;
#14 = CALENDAR_DATE ( 2020, 22, 12 ) ;
#15 = EDGE_LOOP ( 'NONE', ( #264, #294, #138, #18 ) ) ;
#16 = DIRECTION ( 'NONE',  ( -1.000000000000000000, -0.000000000000000000, -0.000000000000000000 ) ) ;
#17 = LOCAL_TIME ( 17, 9, 15.00000000000000000, #134 ) ;
#18 = ORIENTED_EDGE ( 'NONE', *, *, #207, .T. ) ;
#19 = CYLINDRICAL_SURFACE ( 'NONE', #135, 12.69999999999999929 ) ;
#20 = UNCERTAINTY_MEASURE_WITH_UNIT (LENGTH_MEASURE( 1.000000000000000082E-05 ), #183, 'distance_accuracy_value', 'NONE');
#21 = CARTESIAN_POINT ( 'NONE',  ( 3.000000000000000000, 0.000000000000000000, 12.69999999999999929 ) ) ;
#22 = CARTESIAN_POINT ( 'NONE',  ( -3.000000000000000444, 0.000000000000000000, 0.000000000000000000 ) ) ;
#23 = CIRCLE ( 'NONE', #39, 12.69999999999999929 ) ;
#24 = CARTESIAN_POINT ( 'NONE',  ( 2.999999999999999112, 0.000000000000000000, 0.000000000000000000 ) ) ;
#25 = CC_DESIGN_PERSON_AND_ORGANIZATION_ASSIGNMENT ( #193, #107, ( #85 ) ) ;
#26 = CYLINDRICAL_SURFACE ( 'NONE', #104, 12.69999999999999929 ) ;
#27 = VECTOR ( 'NONE', #290, 1000.000000000000000 ) ;
#28 = CIRCLE ( 'NONE', #260, 12.69999999999999929 ) ;
#29 = PERSON_AND_ORGANIZATION ( #237, #154 ) ;
#30 = ADVANCED_FACE ( 'NONE', ( #46 ), #239, .F. ) ;
#31 = CARTESIAN_POINT ( 'NONE',  ( 0.000000000000000000, 0.000000000000000000, 0.000000000000000000 ) ) ;
#32 = CALENDAR_DATE ( 2020, 22, 12 ) ;
#33 = CC_DESIGN_DATE_AND_TIME_ASSIGNMENT ( #89, #307, ( #317 ) ) ;
#34 = SECURITY_CLASSIFICATION_LEVEL ( 'unclassified' ) ;
#35 = ORIENTED_EDGE ( 'NONE', *, *, #283, .F. ) ;
#36 = DIRECTION ( 'NONE',  ( 0.000000000000000000, 0.000000000000000000, -1.000000000000000000 ) ) ;
#37 = MECHANICAL_CONTEXT ( 'NONE', #12, 'mechanical' ) ;
#38 = VERTEX_POINT ( 'NONE', #147 ) ;
#39 = AXIS2_PLACEMENT_3D ( 'NONE', #257, #127, #129 ) ;
#40 = LOCAL_TIME ( 17, 9, 15.00000000000000000, #139 ) ;
#41 = CARTESIAN_POINT ( 'NONE',  ( -1.614212418857619014, 0.000000000000000000, 10.00000000000000000 ) ) ;
#42 = EDGE_LOOP ( 'NONE', ( #87, #315 ) ) ;
#43 = PLANE ( 'NONE',  #309 ) ;
#44 = APPROVAL_ROLE ( '' ) ;
#45 = ORIENTED_EDGE ( 'NONE', *, *, #207, .F. ) ;
#46 = FACE_OUTER_BOUND ( 'NONE', #146, .T. ) ;
#47 = APPLICATION_CONTEXT ( 'configuration controlled 3d designs of mechanical parts and assemblies' ) ;
#48 = CARTESIAN_POINT ( 'NONE',  ( -1.614212418857619014, 0.000000000000000000, 0.000000000000000000 ) ) ;
#49 = DIRECTION ( 'NONE',  ( -1.000000000000000000, -0.000000000000000000, -0.000000000000000000 ) ) ;
#50 = DIRECTION ( 'NONE',  ( 0.000000000000000000, 0.000000000000000000, 1.000000000000000000 ) ) ;
#51 = EDGE_CURVE ( 'NONE', #288, #199, #100, .T. ) ;
#52 = CARTESIAN_POINT ( 'NONE',  ( -3.000000000000000000, 0.000000000000000000, 12.69999999999999929 ) ) ;
#53 = AXIS2_PLACEMENT_3D ( 'NONE', #203, #253, #73 ) ;
#54 = DIRECTION ( 'NONE',  ( 0.000000000000000000, 0.000000000000000000, 1.000000000000000000 ) ) ;
#55 = ADVANCED_FACE ( 'NONE', ( #174 ), #43, .F. ) ;
#56 = AXIS2_PLACEMENT_3D ( 'NONE', #292, #192, #124 ) ;
#57 = ADVANCED_FACE ( 'NONE', ( #166 ), #324, .F. ) ;
#58 = DATE_AND_TIME ( #230, #40 ) ;
#59 = PRODUCT_DEFINITION_SHAPE ( 'NONE', 'NONE',  #317 ) ;
#60 = PERSON_AND_ORGANIZATION ( #237, #154 ) ;
#61 = VERTEX_POINT ( 'NONE', #216 ) ;
#62 = EDGE_LOOP ( 'NONE', ( #325, #150, #153, #165 ) ) ;
#63 = DIRECTION ( 'NONE',  ( -1.000000000000000000, -0.000000000000000000, -0.000000000000000000 ) ) ;
#64 = PERSON_AND_ORGANIZATION ( #237, #154 ) ;
#65 = AXIS2_PLACEMENT_3D ( 'NONE', #91, #113, #267 ) ;
#66 = PLANE ( 'NONE',  #79 ) ;
#67 = ORIENTED_EDGE ( 'NONE', *, *, #9, .T. ) ;
#68 = CARTESIAN_POINT ( 'NONE',  ( -1.614212418857619014, 0.000000000000000000, 0.000000000000000000 ) ) ;
#69 = ORIENTED_EDGE ( 'NONE', *, *, #9, .F. ) ;
#70 = DIRECTION ( 'NONE',  ( 0.000000000000000000, 0.000000000000000000, 1.000000000000000000 ) ) ;
#71 = APPROVAL ( #2, 'UNSPECIFIED' ) ;
#72 = CIRCLE ( 'NONE', #56, 10.00000000000000000 ) ;
#73 = DIRECTION ( 'NONE',  ( -0.000000000000000000, 0.000000000000000000, 1.000000000000000000 ) ) ;
#74 = DIRECTION ( 'NONE',  ( -1.000000000000000000, -0.000000000000000000, -0.000000000000000000 ) ) ;
#75 = ADVANCED_FACE ( 'NONE', ( #265, #151 ), #248, .F. ) ;
#76 = APPROVAL_DATE_TIME ( #293, #152 ) ;
#77 = DIRECTION ( 'NONE',  ( -1.000000000000000000, -0.000000000000000000, -0.000000000000000000 ) ) ;
#78 = CARTESIAN_POINT ( 'NONE',  ( 2.999999999999999112, 0.000000000000000000, 0.000000000000000000 ) ) ;
#79 = AXIS2_PLACEMENT_3D ( 'NONE', #269, #214, #101 ) ;
#80 = AXIS2_PLACEMENT_3D ( 'NONE', #314, #308, #189 ) ;
#81 = LOCAL_TIME ( 17, 9, 15.00000000000000000, #186 ) ;
#82 = DIRECTION ( 'NONE',  ( -1.000000000000000000, -0.000000000000000000, -0.000000000000000000 ) ) ;
#83 = EDGE_CURVE ( 'NONE', #312, #272, #296, .T. ) ;
#84 = CLOSED_SHELL ( 'NONE', ( #179, #30, #251, #204, #244, #57, #148, #96, #75, #55 ) ) ;
#85 = PRODUCT_DEFINITION_FORMATION_WITH_SPECIFIED_SOURCE ( 'ANY', '', #247, .NOT_KNOWN. ) ;
#86 = PERSON_AND_ORGANIZATION_ROLE ( 'design_owner' ) ;
#87 = ORIENTED_EDGE ( 'NONE', *, *, #109, .F. ) ;
#88 = FACE_OUTER_BOUND ( 'NONE', #111, .T. ) ;
#89 = DATE_AND_TIME ( #32, #123 ) ;
#90 = ORIENTED_EDGE ( 'NONE', *, *, #320, .F. ) ;
#91 = CARTESIAN_POINT ( 'NONE',  ( -2.500000000000000444, 0.000000000000000000, 0.000000000000000000 ) ) ;
#92 = ORIENTED_EDGE ( 'NONE', *, *, #97, .T. ) ;
#93 = AXIS2_PLACEMENT_3D ( 'NONE', #327, #299, #332 ) ;
#94 = DIRECTION ( 'NONE',  ( -0.000000000000000000, 0.000000000000000000, 1.000000000000000000 ) ) ;
#95 = VERTEX_POINT ( 'NONE', #198 ) ;
#96 = ADVANCED_FACE ( 'NONE', ( #88 ), #19, .T. ) ;
#97 = EDGE_CURVE ( 'NONE', #95, #215, #72, .T. ) ;
#98 = DIRECTION ( 'NONE',  ( 1.000000000000000000, 0.000000000000000000, 0.000000000000000000 ) ) ;
#99 = DIRECTION ( 'NONE',  ( -1.000000000000000000, -0.000000000000000000, -0.000000000000000000 ) ) ;
#100 = CIRCLE ( 'NONE', #259, 12.69999999999999929 ) ;
#101 = DIRECTION ( 'NONE',  ( 0.000000000000000000, 0.000000000000000000, -1.000000000000000000 ) ) ;
#102 = FACE_OUTER_BOUND ( 'NONE', #219, .T. ) ;
#103 = CARTESIAN_POINT ( 'NONE',  ( 2.500000000000000888, 0.000000000000000000, 10.00000000000000000 ) ) ;
#104 = AXIS2_PLACEMENT_3D ( 'NONE', #227, #74, #226 ) ;
#105 = PERSON_AND_ORGANIZATION_ROLE ( 'classification_officer' ) ;
#106 = EDGE_CURVE ( 'NONE', #312, #61, #297, .T. ) ;
#107 = PERSON_AND_ORGANIZATION_ROLE ( 'creator' ) ;
#108 = APPROVAL_ROLE ( '' ) ;
#109 = EDGE_CURVE ( 'NONE', #61, #312, #238, .T. ) ;
#110 = DIRECTION ( 'NONE',  ( 0.000000000000000000, 0.000000000000000000, 1.000000000000000000 ) ) ;
#111 = EDGE_LOOP ( 'NONE', ( #250, #121, #194, #236 ) ) ;
#112 = CC_DESIGN_DATE_AND_TIME_ASSIGNMENT ( #149, #157, ( #6 ) ) ;
#113 = DIRECTION ( 'NONE',  ( 1.000000000000000000, 0.000000000000000000, 0.000000000000000000 ) ) ;
#114 = DIRECTION ( 'NONE',  ( 1.000000000000000000, 0.000000000000000000, 0.000000000000000000 ) ) ;
#115 = ORIENTED_EDGE ( 'NONE', *, *, #120, .T. ) ;
#116 = FACE_OUTER_BOUND ( 'NONE', #5, .T. ) ;
#117 = EDGE_CURVE ( 'NONE', #61, #38, #201, .T. ) ;
#118 = ORIENTED_EDGE ( 'NONE', *, *, #301, .T. ) ;
#119 = DIRECTION ( 'NONE',  ( -1.000000000000000000, -0.000000000000000000, -0.000000000000000000 ) ) ;
#120 = EDGE_CURVE ( 'NONE', #291, #95, #295, .T. ) ;
#121 = ORIENTED_EDGE ( 'NONE', *, *, #161, .T. ) ;
#122 = EDGE_CURVE ( 'NONE', #211, #288, #326, .T. ) ;
#123 = LOCAL_TIME ( 17, 9, 15.00000000000000000, #262 ) ;
#124 = DIRECTION ( 'NONE',  ( 0.000000000000000000, 0.000000000000000000, 1.000000000000000000 ) ) ;
#125 = ORIENTED_EDGE ( 'NONE', *, *, #51, .F. ) ;
#126 = DIRECTION ( 'NONE',  ( 1.000000000000000000, 0.000000000000000000, 0.000000000000000000 ) ) ;
#127 = DIRECTION ( 'NONE',  ( -1.000000000000000000, -0.000000000000000000, -0.000000000000000000 ) ) ;
#128 = CYLINDRICAL_SURFACE ( 'NONE', #280, 10.00000000000000000 ) ;
#129 = DIRECTION ( 'NONE',  ( 0.000000000000000000, 0.000000000000000000, 1.000000000000000000 ) ) ;
#130 = PLANE ( 'NONE',  #53 ) ;
#131 = AXIS2_PLACEMENT_3D ( 'NONE', #313, #243, #10 ) ;
#132 = APPROVAL_PERSON_ORGANIZATION ( #254, #152, #44 ) ;
#133 = CC_DESIGN_PERSON_AND_ORGANIZATION_ASSIGNMENT ( #60, #206, ( #85 ) ) ;
#134 = COORDINATED_UNIVERSAL_TIME_OFFSET ( 8, 0, .AHEAD. ) ;
#135 = AXIS2_PLACEMENT_3D ( 'NONE', #200, #168, #172 ) ;
#136 = VECTOR ( 'NONE', #159, 1000.000000000000000 ) ;
#137 = EDGE_LOOP ( 'NONE', ( #45, #171 ) ) ;
#138 = ORIENTED_EDGE ( 'NONE', *, *, #225, .T. ) ;
#139 = COORDINATED_UNIVERSAL_TIME_OFFSET ( 8, 0, .AHEAD. ) ;
#140 = AXIS2_PLACEMENT_3D ( 'NONE', #271, #98, #36 ) ;
#141 = EDGE_LOOP ( 'NONE', ( #90, #35 ) ) ;
#142 =( GEOMETRIC_REPRESENTATION_CONTEXT ( 3 ) GLOBAL_UNCERTAINTY_ASSIGNED_CONTEXT ( ( #20 ) ) GLOBAL_UNIT_ASSIGNED_CONTEXT ( ( #183, #4, #208 ) ) REPRESENTATION_CONTEXT ( 'NONE', 'WORKASPACE' ) );
#143 = AXIS2_PLACEMENT_3D ( 'NONE', #24, #302, #163 ) ;
#144 = FACE_BOUND ( 'NONE', #141, .T. ) ;
#145 = CALENDAR_DATE ( 2020, 22, 12 ) ;
#146 = EDGE_LOOP ( 'NONE', ( #270, #169, #323, #246 ) ) ;
#147 = CARTESIAN_POINT ( 'NONE',  ( -3.000000000000000444, 0.000000000000000000, 10.00000000000000000 ) ) ;
#148 = ADVANCED_FACE ( 'NONE', ( #144, #116 ), #66, .F. ) ;
#149 = DATE_AND_TIME ( #145, #17 ) ;
#150 = ORIENTED_EDGE ( 'NONE', *, *, #106, .T. ) ;
#151 = FACE_BOUND ( 'NONE', #173, .T. ) ;
#152 = APPROVAL ( #331, 'UNSPECIFIED' ) ;
#153 = ORIENTED_EDGE ( 'NONE', *, *, #117, .T. ) ;
#154 = ORGANIZATION ( 'UNSPECIFIED', 'UNSPECIFIED', '' ) ;
#155 = CARTESIAN_POINT ( 'NONE',  ( -3.000000000000000000, 0.000000000000000000, 0.000000000000000000 ) ) ;
#156 = DIRECTION ( 'NONE',  ( 0.000000000000000000, 0.000000000000000000, 1.000000000000000000 ) ) ;
#157 = DATE_TIME_ROLE ( 'classification_date' ) ;
#158 = CARTESIAN_POINT ( 'NONE',  ( -3.000000000000000444, 1.224646799147353256E-15, -10.00000000000000000 ) ) ;
#159 = DIRECTION ( 'NONE',  ( -1.000000000000000000, -0.000000000000000000, -0.000000000000000000 ) ) ;
#160 = CARTESIAN_POINT ( 'NONE',  ( -3.000000000000000000, 1.555301434917138433E-15, -12.69999999999999929 ) ) ;
#161 = EDGE_CURVE ( 'NONE', #220, #211, #23, .T. ) ;
#162 = CC_DESIGN_APPROVAL ( #71, ( #85 ) ) ;
#163 = DIRECTION ( 'NONE',  ( 0.000000000000000000, 0.000000000000000000, 1.000000000000000000 ) ) ;
#164 = APPLICATION_PROTOCOL_DEFINITION ( 'international standard', 'config_control_design', 1994, #47 ) ;
#165 = ORIENTED_EDGE ( 'NONE', *, *, #320, .T. ) ;
#166 = FACE_OUTER_BOUND ( 'NONE', #62, .T. ) ;
#167 = ORIENTED_EDGE ( 'NONE', *, *, #185, .F. ) ;
#168 = DIRECTION ( 'NONE',  ( -1.000000000000000000, -0.000000000000000000, -0.000000000000000000 ) ) ;
#169 = ORIENTED_EDGE ( 'NONE', *, *, #83, .T. ) ;
#170 = CARTESIAN_POINT ( 'NONE',  ( -2.500000000000000444, 10.00000000000000000, 0.000000000000000000 ) ) ;
#171 = ORIENTED_EDGE ( 'NONE', *, *, #97, .F. ) ;
#172 = DIRECTION ( 'NONE',  ( 0.000000000000000000, 0.000000000000000000, 1.000000000000000000 ) ) ;
#173 = EDGE_LOOP ( 'NONE', ( #11, #285 ) ) ;
#174 = FACE_OUTER_BOUND ( 'NONE', #42, .T. ) ;
#175 = FACE_OUTER_BOUND ( 'NONE', #15, .T. ) ;
#176 = CARTESIAN_POINT ( 'NONE',  ( 2.999999999999999112, 0.000000000000000000, 10.00000000000000000 ) ) ;
#177 = CARTESIAN_POINT ( 'NONE',  ( 2.999999999999999112, 1.224646799147353256E-15, -10.00000000000000000 ) ) ;
#178 = CC_DESIGN_PERSON_AND_ORGANIZATION_ASSIGNMENT ( #3, #213, ( #317 ) ) ;
#179 = ADVANCED_FACE ( 'NONE', ( #102 ), #26, .T. ) ;
#180 = DIRECTION ( 'NONE',  ( -1.000000000000000000, -0.000000000000000000, -0.000000000000000000 ) ) ;
#181 = VECTOR ( 'NONE', #63, 1000.000000000000000 ) ;
#182 = CIRCLE ( 'NONE', #143, 10.00000000000000000 ) ;
#183 =( LENGTH_UNIT ( ) NAMED_UNIT ( * ) SI_UNIT ( .MILLI., .METRE. ) );
#184 = APPLICATION_PROTOCOL_DEFINITION ( 'international standard', 'config_control_design', 1994, #12 ) ;
#185 = EDGE_CURVE ( 'NONE', #291, #242, #256, .T. ) ;
#186 = COORDINATED_UNIVERSAL_TIME_OFFSET ( 8, 0, .AHEAD. ) ;
#187 = APPROVAL_PERSON_ORGANIZATION ( #64, #71, #108 ) ;
#188 = ORIENTED_EDGE ( 'NONE', *, *, #51, .T. ) ;
#189 = DIRECTION ( 'NONE',  ( 0.000000000000000000, 0.000000000000000000, 1.000000000000000000 ) ) ;
#190 = ORIENTED_EDGE ( 'NONE', *, *, #225, .F. ) ;
#191 = DESIGN_CONTEXT ( 'detailed design', #47, 'design' ) ;
#192 = DIRECTION ( 'NONE',  ( -1.000000000000000000, -0.000000000000000000, -0.000000000000000000 ) ) ;
#193 = PERSON_AND_ORGANIZATION ( #237, #154 ) ;
#194 = ORIENTED_EDGE ( 'NONE', *, *, #122, .T. ) ;
#195 = AXIS2_PLACEMENT_3D ( 'NONE', #68, #119, #241 ) ;
#196 = ORIENTED_EDGE ( 'NONE', *, *, #122, .F. ) ;
#197 = CIRCLE ( 'NONE', #268, 10.00000000000000000 ) ;
#198 = CARTESIAN_POINT ( 'NONE',  ( 2.500000000000000888, 1.224646799147353256E-15, -10.00000000000000000 ) ) ;
#199 = VERTEX_POINT ( 'NONE', #160 ) ;
#200 = CARTESIAN_POINT ( 'NONE',  ( -1.614212418857619014, 0.000000000000000000, 0.000000000000000000 ) ) ;
#201 = LINE ( 'NONE', #41, #328 ) ;
#202 = DIRECTION ( 'NONE',  ( -1.000000000000000000, -0.000000000000000000, -0.000000000000000000 ) ) ;
#203 = CARTESIAN_POINT ( 'NONE',  ( 2.500000000000000444, 10.00000000000000000, 0.000000000000000000 ) ) ;
#204 = ADVANCED_FACE ( 'NONE', ( #330 ), #130, .F. ) ;
#205 = CARTESIAN_POINT ( 'NONE',  ( -1.614212418857619014, 1.555301434917138433E-15, -12.69999999999999929 ) ) ;
#206 = PERSON_AND_ORGANIZATION_ROLE ( 'design_supplier' ) ;
#207 = EDGE_CURVE ( 'NONE', #215, #95, #231, .T. ) ;
#208 =( NAMED_UNIT ( * ) SI_UNIT ( $, .STERADIAN. ) SOLID_ANGLE_UNIT ( ) );
#209 = PERSON_AND_ORGANIZATION ( #237, #154 ) ;
#210 = APPROVAL_PERSON_ORGANIZATION ( #209, #232, #263 ) ;
#211 = VERTEX_POINT ( 'NONE', #21 ) ;
#212 = CARTESIAN_POINT ( 'NONE',  ( -1.614212418857619014, 0.000000000000000000, 12.69999999999999929 ) ) ;
#213 = PERSON_AND_ORGANIZATION_ROLE ( 'creator' ) ;
#214 = DIRECTION ( 'NONE',  ( 1.000000000000000000, 0.000000000000000000, 0.000000000000000000 ) ) ;
#215 = VERTEX_POINT ( 'NONE', #103 ) ;
#216 = CARTESIAN_POINT ( 'NONE',  ( -2.500000000000000444, 0.000000000000000000, 10.00000000000000000 ) ) ;
#217 = AXIS2_PLACEMENT_3D ( 'NONE', #300, #278, #54 ) ;
#218 = ORIENTED_EDGE ( 'NONE', *, *, #161, .F. ) ;
#219 = EDGE_LOOP ( 'NONE', ( #67, #118, #125, #196 ) ) ;
#220 = VERTEX_POINT ( 'NONE', #334 ) ;
#221 = DIRECTION ( 'NONE',  ( -1.000000000000000000, -0.000000000000000000, -0.000000000000000000 ) ) ;
#222 = CARTESIAN_POINT ( 'NONE',  ( -1.614212418857619014, 0.000000000000000000, 10.00000000000000000 ) ) ;
#223 = CC_DESIGN_SECURITY_CLASSIFICATION ( #6, ( #85 ) ) ;
#224 = DIRECTION ( 'NONE',  ( 0.000000000000000000, 0.000000000000000000, 1.000000000000000000 ) ) ;
#225 = EDGE_CURVE ( 'NONE', #242, #215, #276, .T. ) ;
#226 = DIRECTION ( 'NONE',  ( 0.000000000000000000, 0.000000000000000000, 1.000000000000000000 ) ) ;
#227 = CARTESIAN_POINT ( 'NONE',  ( -1.614212418857619014, 0.000000000000000000, 0.000000000000000000 ) ) ;
#228 = CC_DESIGN_APPROVAL ( #232, ( #317 ) ) ;
#229 = CC_DESIGN_PERSON_AND_ORGANIZATION_ASSIGNMENT ( #29, #105, ( #6 ) ) ;
#230 = CALENDAR_DATE ( 2020, 22, 12 ) ;
#231 = CIRCLE ( 'NONE', #93, 10.00000000000000000 ) ;
#232 = APPROVAL ( #234, 'UNSPECIFIED' ) ;
#233 = APPROVAL_DATE_TIME ( #58, #232 ) ;
#234 = APPROVAL_STATUS ( 'not_yet_approved' ) ;
#235 = PRODUCT_RELATED_PRODUCT_CATEGORY ( 'detail', '', ( #247 ) ) ;
#236 = ORIENTED_EDGE ( 'NONE', *, *, #333, .F. ) ;
#237 = PERSON ( 'UNSPECIFIED', 'UNSPECIFIED', 'UNSPECIFIED', ('UNSPECIFIED'), ('UNSPECIFIED'), ('UNSPECIFIED') ) ;
#238 = CIRCLE ( 'NONE', #140, 10.00000000000000000 ) ;
#239 = CYLINDRICAL_SURFACE ( 'NONE', #195, 10.00000000000000000 ) ;
#240 = EDGE_LOOP ( 'NONE', ( #167, #115, #92, #190 ) ) ;
#241 = DIRECTION ( 'NONE',  ( 0.000000000000000000, 0.000000000000000000, 1.000000000000000000 ) ) ;
#242 = VERTEX_POINT ( 'NONE', #176 ) ;
#243 = DIRECTION ( 'NONE',  ( -1.000000000000000000, -0.000000000000000000, -0.000000000000000000 ) ) ;
#244 = ADVANCED_FACE ( 'NONE', ( #175 ), #275, .F. ) ;
#245 = COORDINATED_UNIVERSAL_TIME_OFFSET ( 8, 0, .AHEAD. ) ;
#246 = ORIENTED_EDGE ( 'NONE', *, *, #117, .F. ) ;
#247 = PRODUCT ( 'Q-AZHWP-20-980-M', 'Q-AZHWP-20-980-M', '', ( #37 ) ) ;
#248 = PLANE ( 'NONE',  #279 ) ;
#249 = CC_DESIGN_PERSON_AND_ORGANIZATION_ASSIGNMENT ( #282, #86, ( #247 ) ) ;
#250 = ORIENTED_EDGE ( 'NONE', *, *, #301, .F. ) ;
#251 = ADVANCED_FACE ( 'NONE', ( #258 ), #128, .F. ) ;
#252 = DIRECTION ( 'NONE',  ( 0.000000000000000000, 0.000000000000000000, -1.000000000000000000 ) ) ;
#253 = DIRECTION ( 'NONE',  ( -1.000000000000000000, 0.000000000000000000, -0.000000000000000000 ) ) ;
#254 = PERSON_AND_ORGANIZATION ( #237, #154 ) ;
#255 = CARTESIAN_POINT ( 'NONE',  ( -1.614212418857619014, 0.000000000000000000, 0.000000000000000000 ) ) ;
#256 = CIRCLE ( 'NONE', #1, 10.00000000000000000 ) ;
#257 = CARTESIAN_POINT ( 'NONE',  ( 3.000000000000000000, 0.000000000000000000, 0.000000000000000000 ) ) ;
#258 = FACE_OUTER_BOUND ( 'NONE', #240, .T. ) ;
#259 = AXIS2_PLACEMENT_3D ( 'NONE', #155, #16, #70 ) ;
#260 = AXIS2_PLACEMENT_3D ( 'NONE', #335, #82, #110 ) ;
#261 = APPROVAL_DATE_TIME ( #284, #71 ) ;
#262 = COORDINATED_UNIVERSAL_TIME_OFFSET ( 8, 0, .AHEAD. ) ;
#263 = APPROVAL_ROLE ( '' ) ;
#264 = ORIENTED_EDGE ( 'NONE', *, *, #120, .F. ) ;
#265 = FACE_OUTER_BOUND ( 'NONE', #319, .T. ) ;
#266 = DIRECTION ( 'NONE',  ( 0.000000000000000000, 0.000000000000000000, 1.000000000000000000 ) ) ;
#267 = DIRECTION ( 'NONE',  ( 0.000000000000000000, 0.000000000000000000, -1.000000000000000000 ) ) ;
#268 = AXIS2_PLACEMENT_3D ( 'NONE', #22, #77, #224 ) ;
#269 = CARTESIAN_POINT ( 'NONE',  ( -3.000000000000000000, 10.00000000000000000, 0.000000000000000000 ) ) ;
#270 = ORIENTED_EDGE ( 'NONE', *, *, #109, .T. ) ;
#271 = CARTESIAN_POINT ( 'NONE',  ( -2.500000000000000444, 0.000000000000000000, 0.000000000000000000 ) ) ;
#272 = VERTEX_POINT ( 'NONE', #158 ) ;
#273 = CARTESIAN_POINT ( 'NONE',  ( -1.614212418857619014, 1.224646799147353256E-15, -10.00000000000000000 ) ) ;
#274 = CIRCLE ( 'NONE', #131, 12.69999999999999929 ) ;
#275 = CYLINDRICAL_SURFACE ( 'NONE', #217, 10.00000000000000000 ) ;
#276 = LINE ( 'NONE', #222, #321 ) ;
#277 = LINE ( 'NONE', #205, #136 ) ;
#278 = DIRECTION ( 'NONE',  ( -1.000000000000000000, -0.000000000000000000, -0.000000000000000000 ) ) ;
#279 = AXIS2_PLACEMENT_3D ( 'NONE', #322, #316, #94 ) ;
#280 = AXIS2_PLACEMENT_3D ( 'NONE', #255, #49, #50 ) ;
#281 = AXIS2_PLACEMENT_3D ( 'NONE', #31, #266, #114 ) ;
#282 = PERSON_AND_ORGANIZATION ( #237, #154 ) ;
#283 = EDGE_CURVE ( 'NONE', #272, #38, #197, .T. ) ;
#284 = DATE_AND_TIME ( #311, #81 ) ;
#285 = ORIENTED_EDGE ( 'NONE', *, *, #185, .T. ) ;
#286 = CARTESIAN_POINT ( 'NONE',  ( -2.500000000000000444, 1.224646799147353256E-15, -10.00000000000000000 ) ) ;
#287 = CARTESIAN_POINT ( 'NONE',  ( -1.614212418857619014, 1.224646799147353256E-15, -10.00000000000000000 ) ) ;
#288 = VERTEX_POINT ( 'NONE', #52 ) ;
#289 = AXIS2_PLACEMENT_3D ( 'NONE', #48, #7, #13 ) ;
#290 = DIRECTION ( 'NONE',  ( -1.000000000000000000, -0.000000000000000000, -0.000000000000000000 ) ) ;
#291 = VERTEX_POINT ( 'NONE', #177 ) ;
#292 = CARTESIAN_POINT ( 'NONE',  ( 2.500000000000000888, 0.000000000000000000, 0.000000000000000000 ) ) ;
#293 = DATE_AND_TIME ( #14, #329 ) ;
#294 = ORIENTED_EDGE ( 'NONE', *, *, #305, .F. ) ;
#295 = LINE ( 'NONE', #273, #303 ) ;
#296 = LINE ( 'NONE', #287, #27 ) ;
#297 = CIRCLE ( 'NONE', #65, 10.00000000000000000 ) ;
#298 = CIRCLE ( 'NONE', #80, 10.00000000000000000 ) ;
#299 = DIRECTION ( 'NONE',  ( -1.000000000000000000, -0.000000000000000000, -0.000000000000000000 ) ) ;
#300 = CARTESIAN_POINT ( 'NONE',  ( -1.614212418857619014, 0.000000000000000000, 0.000000000000000000 ) ) ;
#301 = EDGE_CURVE ( 'NONE', #220, #199, #277, .T. ) ;
#302 = DIRECTION ( 'NONE',  ( -1.000000000000000000, -0.000000000000000000, -0.000000000000000000 ) ) ;
#303 = VECTOR ( 'NONE', #221, 1000.000000000000000 ) ;
#304 = CC_DESIGN_APPROVAL ( #152, ( #6 ) ) ;
#305 = EDGE_CURVE ( 'NONE', #242, #291, #182, .T. ) ;
#306 = MANIFOLD_SOLID_BREP ( 'Ðý×', #84 ) ;
#307 = DATE_TIME_ROLE ( 'creation_date' ) ;
#308 = DIRECTION ( 'NONE',  ( -1.000000000000000000, -0.000000000000000000, -0.000000000000000000 ) ) ;
#309 = AXIS2_PLACEMENT_3D ( 'NONE', #170, #126, #252 ) ;
#310 = ADVANCED_BREP_SHAPE_REPRESENTATION ( 'Q-AZHWP-20-980-M', ( #306, #281 ), #142 ) ;
#311 = CALENDAR_DATE ( 2020, 22, 12 ) ;
#312 = VERTEX_POINT ( 'NONE', #286 ) ;
#313 = CARTESIAN_POINT ( 'NONE',  ( 3.000000000000000000, 0.000000000000000000, 0.000000000000000000 ) ) ;
#314 = CARTESIAN_POINT ( 'NONE',  ( -3.000000000000000444, 0.000000000000000000, 0.000000000000000000 ) ) ;
#315 = ORIENTED_EDGE ( 'NONE', *, *, #106, .F. ) ;
#316 = DIRECTION ( 'NONE',  ( -1.000000000000000000, 0.000000000000000000, -0.000000000000000000 ) ) ;
#317 = PRODUCT_DEFINITION ( 'UNKNOWN', '', #85, #191 ) ;
#318 = SHAPE_DEFINITION_REPRESENTATION ( #59, #310 ) ;
#319 = EDGE_LOOP ( 'NONE', ( #69, #218 ) ) ;
#320 = EDGE_CURVE ( 'NONE', #38, #272, #298, .T. ) ;
#321 = VECTOR ( 'NONE', #202, 1000.000000000000000 ) ;
#322 = CARTESIAN_POINT ( 'NONE',  ( 2.999999999999999112, 12.69999999999999929, 0.000000000000000000 ) ) ;
#323 = ORIENTED_EDGE ( 'NONE', *, *, #283, .T. ) ;
#324 = CYLINDRICAL_SURFACE ( 'NONE', #289, 10.00000000000000000 ) ;
#325 = ORIENTED_EDGE ( 'NONE', *, *, #83, .F. ) ;
#326 = LINE ( 'NONE', #212, #181 ) ;
#327 = CARTESIAN_POINT ( 'NONE',  ( 2.500000000000000888, 0.000000000000000000, 0.000000000000000000 ) ) ;
#328 = VECTOR ( 'NONE', #99, 1000.000000000000000 ) ;
#329 = LOCAL_TIME ( 17, 9, 15.00000000000000000, #245 ) ;
#330 = FACE_OUTER_BOUND ( 'NONE', #137, .T. ) ;
#331 = APPROVAL_STATUS ( 'not_yet_approved' ) ;
#332 = DIRECTION ( 'NONE',  ( 0.000000000000000000, 0.000000000000000000, 1.000000000000000000 ) ) ;
#333 = EDGE_CURVE ( 'NONE', #199, #288, #28, .T. ) ;
#334 = CARTESIAN_POINT ( 'NONE',  ( 3.000000000000000000, 1.555301434917138433E-15, -12.69999999999999929 ) ) ;
#335 = CARTESIAN_POINT ( 'NONE',  ( -3.000000000000000000, 0.000000000000000000, 0.000000000000000000 ) ) ;
ENDSEC;
END-ISO-10303-21;
